! !
, - , 15 2007 . , , :)

[]
 
macie3k

Offline



:
: 35
:
: 321
: 21.09.2005

# : 12.08.2007 - 20:08

:
 D       D/C#    D      D/C#
,
 A           G
.
,
.

,
, .

, !

A               [riff 1]
- !
A               [riff 2]
!
-- !
!

,

,
, .

- !
!
-- !
!

[riff 1]
E||----------------|| x2
B||----------------||
G||----------------||
D||--4-4-4-4-4-4-4-||
A||--4-4-4-4-4-4-4-||
E||--2-0-0-2-0-0-2-||

[riff 2]
E||----------------|| x2
B||----------------||
G||----------------||
D||--4-4-4-4-4-4-4-||
A||--4-4-4-4-4-4-4-||
E||--0-2-2-0-2-2-0-||


D i D/C# power-chord
     D    D/C#   
E||------------||
B||------------||
G||------------||
D||--7----7----||
A||--5----4----||
E||------------||
/.
     D    D/C#   
E||--2----2----||
B||--3----3----||
G||--2----2----||
D||--0----0----||
A||-------4----||
E||------------||
E-mail